Mandolin Tab - Like a Hurricane – Page 1 of 2.

Neil Young - Like A Hurricane - American Stars 'N Bars

mandolin tab

Chords:

Am:    5-2-0-0

G:     0-0-2-3

Fmaj7: 2-3-3-0

Em7:   0-0-2-0

C:     0-2-3-3

F:     5-3-0-X


Intro: live version intro

|-----------------------------------------------------|

|-----------------------------------------------------|

|-2-0-----------2-0-------0-0-2P0------------------0--|

|-----5-4-2-4-5-----5-4-5----------5-5-4-2-2-4-5-4----|

|-----------------------------------------------------|

|-----------------------------------------------------|

|-2-0-------------0-------0----0-------------2-0------|

|-----5-4-2-4---5---5-4-5--------5-4-2-2-4-5----------|

VERSE:
Am                            G
Once I thought I saw you in a crowded, hazy bar,
Fmaj7                             Em7  G
Dancing on the light from star to star.
Am                           G
Far across the moon beams, I know that's who you are.
 Fmaj7                               Em7  G (upstroke!)
I saw your brown eyes turning once to fire.

CHORUS:
C   G   F           G     C       G    F       G
You are like a hurricane: there's calm in your eye.
C   G   F              G
And I'm getting blown away.
Fmaj7
To somewhere safer where the feeling stays,
Fmaj7
I wanna love you but I'm getting blown away.

VERSE:
I am just a dreamer, but you are just a dream,
And you could have been anyone to me.
Before that moment you touched my lips,
That perfect feeling when time just slips
Away between us and our foggy trips.


CHORUS:
You are like a hurricane: there's calm in your eye.
And I'm getting blown away.
To somewhere safer where the feeling stays,

VERSE:
You are just a dreamer, and I am just a dream,
And you could have been anyone to me.
Before that moment you touched my lips,
That perfect feeling when time just slips
Away between us and our foggy trips.

CHORUS:
You are like a hurricane: there's calm in your eye.
And I'm getting blown away.
To somewhere safer where the feeling stays,
I wanna love ya but I'm gettin blown away...

Solos:

Part 1:

|---------------------3------------------|

|----------------------------------------|

|-0-2-2-2-2-2-2-0-------0-0-0-0-0--------|

|-----------------5-4-------------5-4-2--|

|----------------------|

|----------------------|

|----------------------|

|-4h5-5-5-5-5-5-4-2-0--|

Part 2: (4x)

|----------------------|

|-------------------0--|

|-0-2-2-2-2-2-2-0------|

|-----------------5----|

Part 3:

E string |-5-5-5-5-5-5-5-5-3-3-3-3-3-3-3-3-|

E string |-1-1-1-1-1-1-1-1-0-0-0-0-0-0-0-0-|

Chords:

Am:    5-2-0-0

G:     0-0-2-3

Fmaj7: 2-3-3-0

Em7:   0-0-2-0

C:     0-2-3-3

F:     5-3-0-X